  0
SECTION
  2
HEADER
  9
$ACADVER
  1
AC1015
  9
$ACADMAINTVER
 70
     6
  9
$DWGCODEPAGE
  3
ANSI_1252
  9
$INSBASE
 10
0.0
 20
0.0
 30
0.0
  9
$EXTMIN
 10
-36.05892708526217
 20
-19.15301525271113
 30
-0.0000000100019834
  9
$EXTMAX
 10
26.47618321042364
 20
23.29856505279551
 30
0.0000000100019837
  9
$LIMMIN
 10
0.0
 20
0.0
  9
$LIMMAX
 10
0.0
 20
0.0
  9
$ORTHOMODE
 70
     0
  9
$REGENMODE
 70
     1
  9
$FILLMODE
 70
     1
  9
$QTEXTMODE
 70
     0
  9
$MIRRTEXT
 70
     1
  9
$LTSCALE
 40
1.0
  9
$ATTMODE
 70
     1
  9
$TEXTSIZE
 40
0.2
  9
$TRACEWID
 40
0.05
  9
$TEXTSTYLE
  7
Standard
  9
$CLAYER
  8
0
  9
$CELTYPE
  6
ByLayer
  9
$CECOLOR
 62
   256
  9
$CELTSCALE
 40
1.0
  9
$DISPSILH
 70
     0
  9
$DIMSCALE
 40
1.0
  9
$DIMASZ
 40
0.2362204724409449
  9
$DIMEXO
 40
0.0393700787401575
  9
$DIMDLI
 40
0.38
  9
$DIMRND
 40
0.0
  9
$DIMDLE
 40
0.0
  9
$DIMEXE
 40
0.0393700787401575
  9
$DIMTP
 40
0.0
  9
$DIMTM
 40
0.0
  9
$DIMTXT
 40
0.1377952755905512
  9
$DIMCEN
 40
0.09
  9
$DIMTSZ
 40
0.0
  9
$DIMTOL
 70
     0
  9
$DIMLIM
 70
     0
  9
$DIMTIH
 70
     1
  9
$DIMTOH
 70
     1
  9
$DIMSE1
 70
     0
  9
$DIMSE2
 70
     0
  9
$DIMTAD
 70
     1
  9
$DIMZIN
 70
     0
  9
$DIMBLK
  1

  9
$DIMASO
 70
     1
  9
$DIMSHO
 70
     1
  9
$DIMPOST
  1

  9
$DIMAPOST
  1

  9
$DIMALT
 70
     0
  9
$DIMALTD
 70
     2
  9
$DIMALTF
 40
25.4
  9
$DIMLFAC
 40
1.0
  9
$DIMTOFL
 70
     0
  9
$DIMTVP
 40
0.0
  9
$DIMTIX
 70
     0
  9
$DIMSOXD
 70
     0
  9
$DIMSAH
 70
     0
  9
$DIMBLK1
  1

  9
$DIMBLK2
  1

  9
$DIMSTYLE
  2
Standard
  9
$DIMCLRD
 70
     0
  9
$DIMCLRE
 70
     0
  9
$DIMCLRT
 70
     0
  9
$DIMTFAC
 40
1.0
  9
$DIMGAP
 40
0.06
  9
$DIMJUST
 70
     0
  9
$DIMSD1
 70
     0
  9
$DIMSD2
 70
     0
  9
$DIMTOLJ
 70
     1
  9
$DIMTZIN
 70
     0
  9
$DIMALTZ
 70
     0
  9
$DIMALTTZ
 70
     0
  9
$DIMUPT
 70
     0
  9
$DIMDEC
 70
     4
  9
$DIMTDEC
 70
     4
  9
$DIMALTU
 70
     2
  9
$DIMALTTD
 70
     2
  9
$DIMTXSTY
  7
Standard
  9
$DIMAUNIT
 70
     0
  9
$DIMADEC
 70
     0
  9
$DIMALTRND
 40
0.0
  9
$DIMAZIN
 70
     0
  9
$DIMDSEP
 70
    46
  9
$DIMATFIT
 70
     3
  9
$DIMFRAC
 70
     0
  9
$DIMLDRBLK
  1

  9
$DIMLUNIT
 70
     2
  9
$DIMLWD
 70
    -2
  9
$DIMLWE
 70
    -2
  9
$DIMTMOVE
 70
     0
  9
$LUNITS
 70
     2
  9
$LUPREC
 70
     3
  9
$SKETCHINC
 40
0.1
  9
$FILLETRAD
 40
0.5
  9
$AUNITS
 70
     0
  9
$AUPREC
 70
     0
  9
$MENU
  1
.
  9
$ELEVATION
 40
0.0
  9
$PELEVATION
 40
0.0
  9
$THICKNESS
 40
0.0
  9
$LIMCHECK
 70
     0
  9
$CHAMFERA
 40
0.5
  9
$CHAMFERB
 40
0.5
  9
$CHAMFERC
 40
1.0
  9
$CHAMFERD
 40
0.0
  9
$SKPOLY
 70
     0
  9
$TDCREATE
 40
2454588.564178553
  9
$TDUCREATE
 40
2454588.772511886
  9
$TDUPDATE
 40
2454719.623283344
  9
$TDUUPDATE
 40
2454719.831616678
  9
$TDINDWG
 40
0.0412637269
  9
$TDUSRTIMER
 40
0.0412637269
  9
$USRTIMER
 70
     1
  9
$ANGBASE
 50
0.0
  9
$ANGDIR
 70
     0
  9
$PDMODE
 70
     0
  9
$PDSIZE
 40
-1.0
  9
$PLINEWID
 40
0.0
  9
$SPLFRAME
 70
     0
  9
$SPLINETYPE
 70
     6
  9
$SPLINESEGS
 70
     8
  9
$HANDSEED
  5
1CC
  9
$SURFTAB1
 70
     6
  9
$SURFTAB2
 70
     6
  9
$SURFTYPE
 70
     6
  9
$SURFU
 70
     6
  9
$SURFV
 70
     6
  9
$UCSBASE
  2

  9
$UCSNAME
  2

  9
$UCSORG
 10
0.0
 20
0.0
 30
0.0
  9
$UCSXDIR
 10
1.0
 20
0.0
 30
0.0
  9
$UCSYDIR
 10
0.0
 20
1.0
 30
0.0
  9
$UCSORTHOREF
  2

  9
$UCSORTHOVIEW
 70
     0
  9
$UCSORGTOP
 10
0.0
 20
0.0
 30
0.0
  9
$UCSORGBOTTOM
 10
0.0
 20
0.0
 30
0.0
  9
$UCSORGLEFT
 10
0.0
 20
0.0
 30
0.0
  9
$UCSORGRIGHT
 10
0.0
 20
0.0
 30
0.0
  9
$UCSORGFRONT
 10
0.0
 20
0.0
 30
0.0
  9
$UCSORGBACK
 10
0.0
 20
0.0
 30
0.0
  9
$PUCSBASE
  2

  9
$PUCSNAME
  2

  9
$PUCSORG
 10
0.0
 20
0.0
 30
0.0
  9
$PUCSXDIR
 10
1.0
 20
0.0
 30
0.0
  9
$PUCSYDIR
 10
0.0
 20
1.0
 30
0.0
  9
$PUCSORTHOREF
  2

  9
$PUCSORTHOVIEW
 70
     0
  9
$PUCSORGTOP
 10
0.0
 20
0.0
 30
0.0
  9
$PUCSORGBOTTOM
 10
0.0
 20
0.0
 30
0.0
  9
$PUCSORGLEFT
 10
0.0
 20
0.0
 30
0.0
  9
$PUCSORGRIGHT
 10
0.0
 20
0.0
 30
0.0
  9
$PUCSORGFRONT
 10
0.0
 20
0.0
 30
0.0
  9
$PUCSORGBACK
 10
0.0
 20
0.0
 30
0.0
  9
$USERI1
 70
     0
  9
$USERI2
 70
     0
  9
$USERI3
 70
     0
  9
$USERI4
 70
     0
  9
$USERI5
 70
     0
  9
$USERR1
 40
0.0
  9
$USERR2
 40
0.0
  9
$USERR3
 40
0.0
  9
$USERR4
 40
0.0
  9
$USERR5
 40
0.0
  9
$WORLDVIEW
 70
     1
  9
$SHADEDGE
 70
     3
  9
$SHADEDIF
 70
    70
  9
$TILEMODE
 70
     1
  9
$MAXACTVP
 70
    64
  9
$PINSBASE
 10
0.0
 20
0.0
 30
0.0
  9
$PLIMCHECK
 70
     0
  9
$PEXTMIN
 10
1.000000000000000E+20
 20
1.000000000000000E+20
 30
1.000000000000000E+20
  9
$PEXTMAX
 10
-1.000000000000000E+20
 20
-1.000000000000000E+20
 30
-1.000000000000000E+20
  9
$PLIMMIN
 10
0.0
 20
0.0
  9
$PLIMMAX
 10
12.0
 20
9.0
  9
$UNITMODE
 70
     0
  9
$VISRETAIN
 70
     1
  9
$PLINEGEN
 70
     0
  9
$PSLTSCALE
 70
     1
  9
$TREEDEPTH
 70
  3020
  9
$CMLSTYLE
  2
Standard
  9
$CMLJUST
 70
     0
  9
$CMLSCALE
 40
1.0
  9
$PROXYGRAPHICS
 70
     1
  9
$MEASUREMENT
 70
     0
  9
$CELWEIGHT
370
    -1
  9
$ENDCAPS
280
     0
  9
$JOINSTYLE
280
     0
  9
$LWDISPLAY
290
     1
  9
$INSUNITS
 70
     1
  9
$HYPERLINKBASE
  1

  9
$STYLESHEET
  1

  9
$XEDIT
290
     1
  9
$CEPSNTYPE
380
     0
  9
$PSTYLEMODE
290
     1
  9
$FINGERPRINTGUID
  2
{A051FF4D-2B73-4792-8DAA-4671EF65264B}
  9
$VERSIONGUID
  2
{80CDBDA9-73C2-42BA-968D-C741B86D027A}
  9
$EXTNAMES
290
     1
  9
$PSVPSCALE
 40
0.0
  9
$OLESTARTUP
290
     0
  0
ENDSEC
  0
SECTION
  2
CLASSES
  0
CLASS
  1
ACDBDICTIONARYWDFLT
  2
AcDbDictionaryWithDefault
  3
AutoCAD 2000
 90
        0
280
     0
281
     0
  0
CLASS
  1
ACDBPLACEHOLDER
  2
AcDbPlaceHolder
  3
AutoCAD 2000
 90
        0
280
     0
281
     0
  0
CLASS
  1
LAYOUT
  2
AcDbLayout
  3
AutoCAD 2000
 90
        0
280
     0
281
     0
  0
ENDSEC
  0
SECTION
  2
TABLES
  0
TABLE
  2
VPORT
  5
8
330
0
100
AcDbSymbolTable
 70
     4
  0
VPORT
  5
1CB
330
8
100
AcDbSymbolTableRecord
100
AcDbViewportTableRecord
  2
*Active
 70
     0
 10
0.0
 20
0.0
 11
1.0
 21
1.0
 12
-4.79137193741926
 22
2.07277490004219
 13
0.0
 23
0.0
 14
0.5
 24
0.5
 15
0.5
 25
0.5
 16
0.0
 26
0.0
 36
1.0
 17
0.0
 27
0.0
 37
0.0
 40
42.92767279491418
 41
1.775280898876404
 42
50.0
 43
0.0
 44
0.0
 50
0.0
 51
0.0
 71
     0
 72
  2000
 73
     1
 74
     3
 75
     0
 76
     0
 77
     0
 78
     0
281
     0
 65
     1
110
0.0
120
0.0
130
0.0
111
1.0
121
0.0
131
0.0
112
0.0
122
1.0
132
0.0
 79
     0
146
0.0
  0
ENDTAB
  0
TABLE
  2
LTYPE
  5
5
330
0
100
AcDbSymbolTable
 70
     6
  0
LTYPE
  5
14
330
5
100
AcDbSymbolTableRecord
100
AcDbLinetypeTableRecord
  2
ByBlock
 70
     0
  3

 72
    65
 73
     0
 40
0.0
  0
LTYPE
  5
15
330
5
100
AcDbSymbolTableRecord
100
AcDbLinetypeTableRecord
  2
ByLayer
 70
     0
  3

 72
    65
 73
     0
 40
0.0
  0
LTYPE
  5
16
330
5
100
AcDbSymbolTableRecord
100
AcDbLinetypeTableRecord
  2
Continuous
 70
     0
  3
Solid line
 72
    65
 73
     0
 40
0.0
  0
LTYPE
  5
2A
330
5
100
AcDbSymbolTableRecord
100
AcDbLinetypeTableRecord
  2
HIDDEN
 70
     0
  3
Hidden __ __ __ __ __ __ __ __ __ __ __ __ __ __
 72
    65
 73
     2
 40
0.075
 49
0.05
 74
     0
 49
-0.025
 74
     0
  0
LTYPE
  5
2B
330
5
100
AcDbSymbolTableRecord
100
AcDbLinetypeTableRecord
  2
PHANTOM
 70
     0
  3
Phantom ______  __  __  ______  __  __  ______
 72
    65
 73
     6
 40
0.5
 49
0.25
 74
     0
 49
-0.05
 74
     0
 49
0.05
 74
     0
 49
-0.05
 74
     0
 49
0.05
 74
     0
 49
-0.05
 74
     0
  0
LTYPE
  5
2C
330
5
100
AcDbSymbolTableRecord
100
AcDbLinetypeTableRecord
  2
CENTER
 70
     0
  3
Center ____ _ ____ _ ____ _ ____ _ ____ _ ____
 72
    65
 73
     4
 40
0.4
 49
0.25
 74
     0
 49
-0.05
 74
     0
 49
0.05
 74
     0
 49
-0.05
 74
     0
  0
LTYPE
  5
2D
330
5
100
AcDbSymbolTableRecord
100
AcDbLinetypeTableRecord
  2
CENTERX2
 70
     0
  3
Center (2x) ________  __  ________  __  _____
 72
    65
 73
     4
 40
0.8
 49
0.5
 74
     0
 49
-0.1
 74
     0
 49
0.1
 74
     0
 49
-0.1
 74
     0
  0
LTYPE
  5
2E
330
5
100
AcDbSymbolTableRecord
100
AcDbLinetypeTableRecord
  2
DOT2
 70
     0
  3
Dot (.5x) ........................................
 72
    65
 73
     2
 40
0.025
 49
0.0
 74
     0
 49
-0.025
 74
     0
  0
ENDTAB
  0
TABLE
  2
LAYER
  5
2
330
0
100
AcDbSymbolTable
 70
     2
  0
LAYER
  5
10
330
2
100
AcDbSymbolTableRecord
100
AcDbLayerTableRecord
  2
0
 70
     0
 62
     7
  6
Continuous
370
    -3
390
F
  0
LAYER
  5
2F
330
2
100
AcDbSymbolTableRecord
100
AcDbLayerTableRecord
  2
FORMAT
 70
     0
 62
     7
  6
Continuous
370
    -3
390
F
  0
ENDTAB
  0
TABLE
  2
STYLE
  5
3
330
0
100
AcDbSymbolTable
 70
     2
  0
STYLE
  5
11
330
3
100
AcDbSymbolTableRecord
100
AcDbTextStyleTableRecord
  2
Standard
 70
     0
 40
0.0
 41
1.0
 50
0.0
 71
     0
 42
0.2
  3
txt
  4

  0
STYLE
  5
19E
330
3
100
AcDbSymbolTableRecord
100
AcDbTextStyleTableRecord
  2
SLDTEXTSTYLE0
 70
     0
 40
0.0
 41
0.75
 50
0.0
 71
     0
 42
0.2
  3
TXT
  4

  0
ENDTAB
  0
TABLE
  2
VIEW
  5
6
330
0
100
AcDbSymbolTable
 70
     0
  0
ENDTAB
  0
TABLE
  2
UCS
  5
7
330
0
100
AcDbSymbolTable
 70
     0
  0
ENDTAB
  0
TABLE
  2
APPID
  5
9
330
0
100
AcDbSymbolTable
 70
     1
  0
APPID
  5
12
330
9
100
AcDbSymbolTableRecord
100
AcDbRegAppTableRecord
  2
ACAD
 70
     0
  0
ENDTAB
  0
TABLE
  2
DIMSTYLE
  5
A
330
0
100
AcDbSymbolTable
 70
     1
100
AcDbDimStyleTable
 71
     0
  0
DIMSTYLE
105
27
330
A
100
AcDbSymbolTableRecord
100
AcDbDimStyleTableRecord
  2
Standard
 70
     0
340
11
  0
ENDTAB
  0
TABLE
  2
BLOCK_RECORD
  5
1
330
0
100
AcDbSymbolTable
 70
     3
  0
BLOCK_RECORD
  5
1F
330
1
100
AcDbSymbolTableRecord
100
AcDbBlockTableRecord
  2
*Model_Space
340
22
  0
BLOCK_RECORD
  5
1B
330
1
100
AcDbSymbolTableRecord
100
AcDbBlockTableRecord
  2
*Paper_Space
340
1E
  0
BLOCK_RECORD
  5
23
330
1
100
AcDbSymbolTableRecord
100
AcDbBlockTableRecord
  2
*Paper_Space0
340
26
  0
BLOCK_RECORD
  5
19B
330
1
100
AcDbSymbolTableRecord
100
AcDbBlockTableRecord
  2
SW_NOTE_0
340
0
1001
ACAD
1000
DesignCenter Data
1002
{
1070
     1
1070
     0
1002
}
  0
ENDTAB
  0
ENDSEC
  0
SECTION
  2
BLOCKS
  0
BLOCK
  5
20
330
1F
100
AcDbEntity
  8
0
100
AcDbBlockBegin
  2
*Model_Space
 70
     0
 10
0.0
 20
0.0
 30
0.0
  3
*Model_Space
  1

  0
ENDBLK
  5
21
330
1F
100
AcDbEntity
  8
0
100
AcDbBlockEnd
  0
BLOCK
  5
1C
330
1B
100
AcDbEntity
 67
     1
  8
0
100
AcDbBlockBegin
  2
*Paper_Space
 70
     0
 10
0.0
 20
0.0
 30
0.0
  3
*Paper_Space
  1

  0
ENDBLK
  5
1D
330
1B
100
AcDbEntity
 67
     1
  8
0
100
AcDbBlockEnd
  0
BLOCK
  5
24
330
23
100
AcDbEntity
  8
0
100
AcDbBlockBegin
  2
*Paper_Space0
 70
     0
 10
0.0
 20
0.0
 30
0.0
  3
*Paper_Space0
  1

  0
ENDBLK
  5
25
330
23
100
AcDbEntity
  8
0
100
AcDbBlockEnd
  0
BLOCK
  5
19C
330
19B
100
AcDbEntity
  8
0
100
AcDbBlockBegin
  2
SW_NOTE_0
 70
     0
 10
0.0
 20
0.0
 30
0.0
  3
SW_NOTE_0
  1

  0
MTEXT
  5
19F
330
19B
100
AcDbEntity
  8
0
  6
Continuous
 62
     0
370
     0
100
AcDbMText
 10
0.0
 20
1.33056640625
 30
0.0
 40
1.041666666666666
 41
0.0
 71
     1
 72
     1
  1
TITUS
  7
SLDTEXTSTYLE0
 73
     1
 44
1.0
  0
MTEXT
  5
1A0
330
19B
100
AcDbEntity
  8
0
  6
Continuous
 62
     0
370
     0
100
AcDbMText
 10
0.346257666668554
 20
-0.0583224291876539
 30
0.0
 40
1.041666666666666
 41
0.0
 71
     1
 72
     1
  1
TQS
  7
SLDTEXTSTYLE0
 73
     1
 44
1.0
  0
MTEXT
  5
1A1
330
19B
100
AcDbEntity
  8
0
  6
Continuous
 62
     0
370
     0
100
AcDbMText
 10
-0.2633101182190452
 20
-1.447211264625308
 30
0.0
 40
1.041666666666666
 41
0.0
 71
     1
 72
     1
  1
SIZE 4
  7
SLDTEXTSTYLE0
 73
     1
 44
1.0
  0
MTEXT
  5
1A2
330
19B
100
AcDbEntity
  8
0
  6
Continuous
 62
     0
370
     0
100
AcDbMText
 10
-1.304976671464799
 20
-2.836100100062962
 30
0.0
 40
1.041666666666666
 41
0.0
 71
     1
 72
     1
  1
14" INLET
  7
SLDTEXTSTYLE0
 73
     1
 44
1.0
  0
ENDBLK
  5
19D
330
19B
100
AcDbEntity
  8
0
100
AcDbBlockEnd
  0
ENDSEC
  0
SECTION
  2
ENTITIES
  0
LINE
  5
30
330
1F
100
AcDbEntity
  8
0
  6
Continuous
 62
     7
370
    15
100
AcDbLine
 10
-17.8825245898594
 20
-10.84292403102022
 30
0.0
 11
-14.42852459742871
 21
-10.84292403102023
 31
0.0
  0
LINE
  5
32
330
1F
100
AcDbEntity
  8
0
  6
Continuous
 62
     7
370
    15
100
AcDbLine
 10
-14.42852459742866
 20
3.032076177126693
 30
0.0
 11
-17.88252458985934
 21
3.032076177126707
 31
0.0
  0
LINE
  5
43
330
1F
100
AcDbEntity
  8
0
  6
Continuous
 62
     7
370
    15
100
AcDbLine
 10
-17.88252458985934
 20
3.032076177126707
 30
0.0
 11
-17.8825245898594
 21
-10.84292403102022
 31
0.0
  0
LINE
  5
46
330
1F
100
AcDbEntity
  8
0
  6
Continuous
 62
     7
370
    15
100
AcDbLine
 10
-14.45452301709276
 20
-12.85302966344179
 30
0.0
 11
-14.4545230170927
 21
4.232182553395398
 31
0.0
  0
SPLINE
  5
48
330
1F
100
AcDbEntity
  8
0
  6
Continuous
 62
     7
370
    15
100
AcDbSpline
210
0.0
220
0.0
230
1.0
 70
     8
 71
     3
 72
     9
 73
     5
 74
     0
 42
0.0000000001
 43
0.0000000001
 40
0.0
 40
0.0
 40
0.0
 40
0.0
 40
0.101552979932743
 40
1.0
 40
1.0
 40
1.0
 40
1.0
 10
-14.42852459742866
 20
4.22950951094128
 30
0.0
 10
-14.42927566098344
 20
4.229600003633085
 30
0.0
 10
-14.43667144154322
 20
4.230491092125665
 30
0.0
 10
-14.44607469344374
 20
4.231382063141372
 30
0.0
 10
-14.4545230170927
 20
4.232182553395398
 30
0.0
  0
LINE
  5
49
330
1F
100
AcDbEntity
  8
0
  6
Continuous
 62
     7
370
    15
100
AcDbLine
 10
-14.39252479996812
 20
-12.84342369441077
 30
0.0
 11
-14.39252479996812
 21
-12.83542400015726
 31
0.0
  0
SPLINE
  5
4A
330
1F
100
AcDbEntity
  8
0
  6
Continuous
 62
     7
370
    15
100
AcDbSpline
210
0.0
220
0.0
230
1.0
 70
     8
 71
     3
 72
    11
 73
     7
 74
     0
 42
0.0000000001
 43
0.0000000001
 40
0.0
 40
0.0
 40
0.0
 40
0.0
 40
0.2500073563707842
 40
0.5000062091806382
 40
0.7500150459212662
 40
1.0
 40
1.0
 40
1.0
 40
1.0
 10
-14.39252479996812
 20
-12.84342369441077
 30
0.0
 10
-14.39345664270336
 20
-12.84422428564773
 30
0.0
 10
-14.39532029647885
 20
-12.84582544089095
 30
0.0
 10
-14.40965687782948
 20
-12.84822726337073
 30
0.0
 10
-14.43015158107974
 20
-12.85062921923908
 30
0.0
 10
-14.44639946378675
 20
-12.8522295408545
 30
0.0
 10
-14.45452301709276
 20
-12.85302966344179
 30
0.0
  0
SPLINE
  5
4E
330
1F
100
AcDbEntity
  8
0
  6
Continuous
 62
     7
370
    15
100
AcDbSpline
210
0.0
220
0.0
230
1.0
 70
    24
 71
     1
 72
     4
 73
     2
 74
     0
 42
0.0000000001
 43
0.0000000001
 40
0.0
 40
0.0
 40
1.0
 40
1.0
 10
-14.4545230170927
 20
4.232576275513753
 30
0.0
 10
-14.4545230170927
 20
4.284576268138735
 30
0.0
  0
SPLINE
  5
4F
330
1F
100
AcDbEntity
  8
0
  6
Continuous
 62
     7
370
    15
100
AcDbSpline
210
0.0
220
0.0
230
1.0
 70
     8
 71
     3
 72
     9
 73
     5
 74
     0
 42
0.0000000001
 43
0.0000000001
 40
0.0
 40
0.0
 40
0.0
 40
0.0
 40
0.8984266087034139
 40
1.0
 40
1.0
 40
1.0
 40
1.0
 10
-14.4545230170927
 20
4.284576268138735
 30
0.0
 10
-14.44607403196178
 20
4.284308569751858
 30
0.0
 10
-14.43666983016159
 20
4.284010606196144
 30
0.0
 10
-14.42927564944037
 20
4.278860676075849
 30
0.0
 10
-14.42852459742866
 20
4.278337580208591
 30
0.0
  0
SPLINE
  5
50
330
1F
100
AcDbEntity
  8
0
  6
Continuous
 62
     7
370
    15
100
AcDbSpline
210
0.0
220
0.0
230
1.0
 70
     8
 71
     3
 72
    11
 73
     7
 74
     0
 42
0.0000000001
 43
0.0000000001
 40
0.0
 40
0.0
 40
0.0
 40
0.0
 40
0.2499858480324999
 40
0.4999943867839843
 40
0.7499929416165948
 40
1.0
 40
1.0
 40
1.0
 40
1.0
 10
-14.45452301709276
 20
-12.90542425817497
 30
0.0
 10
-14.44639947238239
 20
-12.90449173951312
 30
0.0
 10
-14.43015164560364
 20
-12.90262661754655
 30
0.0
 10
-14.40965686930874
 20
-12.88829160451463
 30
0.0
 10
-14.39532029860908
 20
-12.86779664883012
 30
0.0
 10
-14.39345664341345
 20
-12.85154810466307
 30
0.0
 10
-14.39252479996812
 20
-12.84342369441077
 30
0.0
  0
SPLINE
  5
51
330
1F
100
AcDbEntity
  8
0
  6
Continuous
 62
     7
370
    15
100
AcDbSpline
210
0.0
220
0.0
230
1.0
 70
    24
 71
     1
 72
     4
 73
     2
 74
     0
 42
0.0000000001
 43
0.0000000001
 40
0.0
 40
0.0
 40
1.0
 40
1.0
 10
-14.45452301709276
 20
-12.85342389888755
 30
0.0
 10
-14.45452301709276
 20
-12.90542425817497
 30
0.0
  0
LINE
  5
55
330
1F
100
AcDbEntity
  8
0
  6
Continuous
 62
     7
370
    15
100
AcDbLine
 10
-14.35852433941101
 20
-12.84842320998927
 30
0.0
 11
-14.39252479996812
 21
-12.84842320998927
 31
0.0
  0
LINE
  5
56
330
1F
100
AcDbEntity
  8
0
  6
Continuous
 62
     7
370
    15
100
AcDbLine
 10
-14.35852433941101
 20
-12.84042351573575
 30
0.0
 11
-14.35852433941101
 21
-12.84842320998927
 31
0.0
  0
LINE
  5
57
330
1F
100
AcDbEntity
  8
0
  6
Continuous
 62
     7
370
    15
100
AcDbLine
 10
-14.39252479996812
 20
-12.8434495074459
 30
0.0
 11
-14.39252479996812
 21
-12.84842320998927
 31
0.0
  0
LINE
  5
58
330
1F
100
AcDbEntity
  8
0
  6
Continuous
 62
     7
370
    15
100
AcDbLine
 10
8.446475868613866
 20
-19.15042464873097
 30
0.0
 11
8.446475868613891
 21
-12.90042356927677
 31
0.0
  0
LINE
  5
59
330
1F
100
AcDbEntity
  8
0
  6
Continuous
 62
     7
370
    15
100
AcDbLine
 10
-11.55352388968226
 20
-19.15042464873089
 30
0.0
 11
8.446475868613866
 21
-19.15042464873097
 31
0.0
  0
LINE
  5
5A
330
1F
100
AcDbEntity
  8
0
  6
Continuous
 62
     7
370
    15
100
AcDbLine
 10
8.446475868613891
 20
-12.90042356927677
 30
0.0
 11
-11.55352388968223
 21
-12.9004235692767
 31
0.0
  0
LINE
  5
5B
330
1F
100
AcDbEntity
  8
0
  6
Continuous
 62
     7
370
    15
100
AcDbLine
 10
-11.55352388968223
 20
-12.9004235692767
 30
0.0
 11
-11.55352388968226
 21
-19.15042464873089
 31
0.0
  0
LINE
  5
6B
330
1F
100
AcDbEntity
  8
0
  6
Continuous
 62
     7
370
    15
100
AcDbLine
 10
5.921475933045409
 20
22.40957567326553
 30
0.0
 11
6.12347593577414
 21
22.40957567326553
 31
0.0
  0
LINE
  5
6C
330
1F
100
AcDbEntity
  8
0
  6
Continuous
 62
     7
370
    15
100
AcDbLine
 10
5.981475931586848
 20
-11.8404241878134
 30
0.0
 11
6.063475932649171
 21
-11.8404241878134
 31
0.0
  0
LINE
  5
6D
330
1F
100
AcDbEntity
  8
0
  6
Continuous
 62
     7
370
    15
100
AcDbLine
 10
5.981475931586846
 20
-11.88042383240076
 30
0.0
 11
6.06347593264917
 21
-11.88042383240076
 31
0.0
  0
LINE
  5
6E
330
1F
100
AcDbEntity
  8
0
  6
Continuous
 62
     7
370
    15
100
AcDbLine
 10
6.058975930466971
 20
3.895576321899233
 30
0.0
 11
5.981475931586905
 21
3.895576321899233
 31
0.0
  0
LINE
  5
6F
330
1F
100
AcDbEntity
  8
0
  6
Continuous
 62
     7
370
    15
100
AcDbLine
 10
6.058975930466972
 20
4.08357625010802
 30
0.0
 11
6.063475932649229
 21
4.08346845135332
 31
0.0
  0
LINE
  5
70
330
1F
100
AcDbEntity
  8
0
  6
Continuous
 62
     7
370
    15
100
AcDbLine
 10
6.063475932649228
 20
3.89568397398896
 30
0.0
 11
6.058975930466971
 21
3.895576321899233
 31
0.0
  0
LINE
  5
71
330
1F
100
AcDbEntity
  8
0
  6
Continuous
 62
     7
370
    15
100
AcDbLine
 10
5.981475931586905
 20
4.08357625010802
 30
0.0
 11
6.058975930466972
 21
4.08357625010802
 31
0.0
  0
LINE
  5
76
330
1F
100
AcDbEntity
  8
0
  6
Continuous
 62
     7
370
    15
100
AcDbLine
 10
5.981475931586914
 20
6.485576188666426
 30
0.0
 11
6.058975930466981
 21
6.485576188666426
 31
0.0
  0
LINE
  5
77
330
1F
100
AcDbEntity
  8
0
  6
Continuous
 62
     7
370
    15
100
AcDbLine
 10
6.058975930466981
 20
6.485576188666426
 30
0.0
 11
6.063475932649238
 21
6.485683987421126
 31
0.0
  0
LINE
  5
78
330
1F
100
AcDbEntity
  8
0
  6
Continuous
 62
     7
370
    15
100
AcDbLine
 10
6.063475932649239
 20
6.673468538117972
 30
0.0
 11
6.058975930466981
 21
6.673576190207699
 31
0.0
  0
LINE
  5
79
330
1F
100
AcDbEntity
  8
0
  6
Continuous
 62
     7
370
    15
100
AcDbLine
 10
6.058975930466981
 20
6.673576190207699
 30
0.0
 11
5.981475931586915
 21
6.673576190207699
 31
0.0
  0
LINE
  5
82
330
1F
100
AcDbEntity
  8
0
  6
Continuous
 62
     7
370
    15
100
AcDbLine
 10
-11.55352388968223
 20
-12.9854235473497
 30
0.0
 11
-12.51813002646983
 21
-12.9854235473497
 31
0.0
  0
LINE
  5
83
330
1F
100
AcDbEntity
  8
0
  6
Continuous
 62
     7
370
    15
100
AcDbLine
 10
-12.60313000454283
 20
-12.9004235692767
 30
0.0
 11
-12.51813002646983
 21
-12.9854235473497
 31
0.0
  0
LINE
  5
84
330
1F
100
AcDbEntity
  8
0
  6
Continuous
 62
     7
370
    15
100
AcDbLine
 10
26.40847607672153
 20
23.22457649830637
 30
0.0
 11
26.43347482793382
 21
23.22457649830637
 31
0.0
  0
LINE
  5
85
330
1F
100
AcDbEntity
  8
0
  6
Continuous
 62
     7
370
    15
100
AcDbLine
 10
26.43347482793382
 20
23.22457649830637
 30
0.0
 11
26.43347482793369
 21
-12.83542400015741
 31
0.0
  0
LINE
  5
86
330
1F
100
AcDbEntity
  8
0
  6
Continuous
 62
     7
370
    15
100
AcDbLine
 10
26.4084760767214
 20
-12.83542400015741
 30
0.0
 11
26.43347482793369
 21
-12.83542400015741
 31
0.0
  0
LINE
  5
87
330
1F
100
AcDbEntity
  8
0
  6
Continuous
 62
     7
370
    15
100
AcDbLine
 10
26.38347497886955
 20
-12.86042392468948
 30
0.0
 11
26.4084760767214
 21
-12.83542400015741
 31
0.0
  0
LINE
  5
88
330
1F
100
AcDbEntity
  8
0
  6
Continuous
 62
     7
370
    15
100
AcDbLine
 10
26.38347497886955
 20
-12.86042392468948
 30
0.0
 11
6.123475935774011
 21
-12.86042392468941
 31
0.0
  0
LINE
  5
89
330
1F
100
AcDbEntity
  8
0
  6
Continuous
 62
     7
370
    15
100
AcDbLine
 10
6.123475935774014
 20
-11.90542375693284
 30
0.0
 11
6.123475935774011
 21
-12.86042392468941
 31
0.0
  0
LINE
  5
8A
330
1F
100
AcDbEntity
  8
0
  6
Continuous
 62
     7
370
    15
100
AcDbLine
 10
6.103475930149119
 20
-11.90542375693284
 30
0.0
 11
6.123475935774014
 21
-11.90542375693284
 31
0.0
  0
LINE
  5
8B
330
1F
100
AcDbEntity
  8
0
  6
Continuous
 62
     7
370
    15
100
AcDbLine
 10
6.103475930149119
 20
-11.90542375693284
 30
0.0
 11
6.103475930149246
 21
22.29457625508195
 31
0.0
  0
LINE
  5
8C
330
1F
100
AcDbEntity
  8
0
  6
Continuous
 62
     7
370
    15
100
AcDbLine
 10
6.103475930149246
 20
22.29457625508195
 30
0.0
 11
6.12347593577414
 21
22.29457625508195
 31
0.0
  0
LINE
  5
8D
330
1F
100
AcDbEntity
  8
0
  6
Continuous
 62
     7
370
    15
100
AcDbLine
 10
6.12347593577414
 20
22.29457625508195
 30
0.0
 11
6.123475935774144
 21
23.24957642283852
 31
0.0
  0
LINE
  5
8E
330
1F
100
AcDbEntity
  8
0
  6
Continuous
 62
     7
370
    15
100
AcDbLine
 10
6.123475935774144
 20
23.24957642283852
 30
0.0
 11
26.38347497886968
 21
23.24957642283844
 31
0.0
  0
LINE
  5
8F
330
1F
100
AcDbEntity
  8
0
  6
Continuous
 62
     7
370
    15
100
AcDbLine
 10
26.38347497886968
 20
23.24957642283844
 30
0.0
 11
26.40847607672153
 21
23.22457649830637
 31
0.0
  0
LINE
  5
CC
330
1F
100
AcDbEntity
  8
0
  6
Continuous
 62
     7
370
    15
100
AcDbLine
 10
6.123475935774144
 20
23.28957606742588
 30
0.0
 11
6.123475935774144
 21
23.24957642283852
 31
0.0
  0
LINE
  5
CD
330
1F
100
AcDbEntity
  8
0
  6
Continuous
 62
     7
370
    15
100
AcDbLine
 10
6.123475935774144
 20
23.28957606742588
 30
0.0
 11
26.36847525881439
 21
23.28957606742581
 31
0.0
  0
SPLINE
  5
CE
330
1F
100
AcDbEntity
  8
0
  6
Continuous
 62
     7
370
    15
100
AcDbSpline
210
0.0
220
0.0
230
1.0
 70
     8
 71
     3
 72
    11
 73
     7
 74
     0
 42
0.0000000001
 43
0.0000000001
 40
0.0
 40
0.0
 40
0.0
 40
0.0
 40
0.2499988114374716
 40
0.5
 40
0.7500011885625284
 40
1.0
 40
1.0
 40
1.0
 40
1.0
 10
26.36847525881439
 20
23.28957606742581
 30
0.0
 10
26.36972523845699
 20
23.28897481043262
 30
0.0
 10
26.37222520962767
 20
23.2877722907292
 30
0.0
 10
26.37597511884203
 20
23.27852246263244
 30
0.0
 10
26.3797250280564
 20
23.26530068792248
 30
0.0
 10
26.38222499922708
 20
23.25481782792041
 30
0.0
 10
26.38347497886968
 20
23.24957642283844
 30
0.0
  0
LINE
  5
CF
330
1F
100
AcDbEntity
  8
0
  6
Continuous
 62
     7
370
    15
100
AcDbLine
 10
26.36847525881426
 20
-12.90042356927684
 30
0.0
 11
8.446495815050134
 21
-12.90042356927677
 31
0.0
  0
LINE
  5
D0
330
1F
100
AcDbEntity
  8
0
  6
Continuous
 62
     7
370
    15
100
AcDbLine
 10
6.123475935774011
 20
-12.90042356927676
 30
0.0
 11
6.123475935774011
 21
-12.86042392468941
 31
0.0
  0
SPLINE
  5
D1
330
1F
100
AcDbEntity
  8
0
  6
Continuous
 62
     7
370
    15
100
AcDbSpline
210
0.0
220
0.0
230
1.0
 70
     8
 71
     3
 72
    11
 73
     7
 74
     0
 42
0.0000000001
 43
0.0000000001
 40
0.0
 40
0.0
 40
0.0
 40
0.0
 40
0.2499988114374716
 40
0.5
 40
0.7500011885625284
 40
1.0
 40
1.0
 40
1.0
 40
1.0
 10
26.36847525881426
 20
-12.90042356927684
 30
0.0
 10
26.36972523845686
 20
-12.89982231228366
 30
0.0
 10
26.37222520962754
 20
-12.89861979258023
 30
0.0
 10
26.37597511884191
 20
-12.88936996448347
 30
0.0
 10
26.37972502805627
 20
-12.87614818977352
 30
0.0
 10
26.38222499922695
 20
-12.86566532977145
 30
0.0
 10
26.38347497886955
 20
-12.86042392468948
 30
0.0
  0
LINE
  5
D2
330
1F
100
AcDbEntity
  8
0
  6
Continuous
 62
     7
370
    15
100
AcDbLine
 10
6.06347593264917
 20
-11.90542375693284
 30
0.0
 11
6.103475930149119
 21
-11.90542375693284
 31
0.0
  0
LINE
  5
D3
330
1F
100
AcDbEntity
  8
0
  6
Continuous
 62
     7
370
    15
100
AcDbLine
 10
6.06347593264917
 20
-11.90542375693284
 30
0.0
 11
6.063475932649297
 21
22.29457625508195
 31
0.0
  0
LINE
  5
D4
330
1F
100
AcDbEntity
  8
0
  6
Continuous
 62
     7
370
    15
100
AcDbLine
 10
6.063475932649297
 20
22.29457625508195
 30
0.0
 11
6.103475930149246
 21
22.29457625508195
 31
0.0
  0
LINE
  5
D5
330
1F
100
AcDbEntity
  8
0
  6
Continuous
 62
     7
370
    15
100
AcDbLine
 10
26.47347564584096
 20
23.22457649830637
 30
0.0
 11
26.47347564584083
 21
-12.83542400015741
 31
0.0
  0
LINE
  5
D6
330
1F
100
AcDbEntity
  8
0
  6
Continuous
 62
     7
370
    15
100
AcDbLine
 10
26.47347564584083
 20
-12.83542400015741
 30
0.0
 11
26.43347482793369
 21
-12.83542400015741
 31
0.0
  0
LINE
  5
D7
330
1F
100
AcDbEntity
  8
0
  6
Continuous
 62
     7
370
    15
100
AcDbLine
 10
26.43347482793382
 20
23.22457649830637
 30
0.0
 11
26.47347564584096
 21
23.22457649830637
 31
0.0
  0
LINE
  5
D8
330
1F
100
AcDbEntity
  8
0
  6
Continuous
 62
     7
370
    15
100
AcDbLine
 10
-14.33852393045731
 20
23.24957642283859
 30
0.0
 11
5.921475933045413
 21
23.24957642283852
 31
0.0
  0
LINE
  5
D9
330
1F
100
AcDbEntity
  8
0
  6
Continuous
 62
     7
370
    15
100
AcDbLine
 10
-14.32352421040202
 20
23.28957606742596
 30
0.0
 11
5.921475933045413
 21
23.28957606742588
 31
0.0
  0
LINE
  5
DA
330
1F
100
AcDbEntity
  8
0
  6
Continuous
 62
     7
370
    15
100
AcDbLine
 10
5.921475933045413
 20
23.28957606742588
 30
0.0
 11
5.921475933045413
 21
23.24957642283852
 31
0.0
  0
SPLINE
  5
DB
330
1F
100
AcDbEntity
  8
0
  6
Continuous
 62
     7
370
    15
100
AcDbSpline
210
0.0
220
0.0
230
1.0
 70
     8
 71
     3
 72
    11
 73
     7
 74
     0
 42
0.0000000001
 43
0.0000000001
 40
0.0
 40
0.0
 40
0.0
 40
0.0
 40
0.2499988114374716
 40
0.5
 40
0.7500011885625284
 40
1.0
 40
1.0
 40
1.0
 40
1.0
 10
-14.32352421040202
 20
23.28957606742596
 30
0.0
 10
-14.32477419004462
 20
23.28897481043278
 30
0.0
 10
-14.3272741612153
 20
23.28777229072934
 30
0.0
 10
-14.33102407042967
 20
23.27852246263258
 30
0.0
 10
-14.33477397964403
 20
23.26530068792263
 30
0.0
 10
-14.33727395081471
 20
23.25481782792056
 30
0.0
 10
-14.33852393045731
 20
23.24957642283859
 30
0.0
  0
LINE
  5
DC
330
1F
100
AcDbEntity
  8
0
  6
Continuous
 62
     7
370
    15
100
AcDbLine
 10
-14.36352502830929
 20
-12.83542400015726
 30
0.0
 11
-14.38852377952158
 21
-12.83542400015726
 31
0.0
  0
LINE
  5
DD
330
1F
100
AcDbEntity
  8
0
  6
Continuous
 62
     7
370
    15
100
AcDbLine
 10
-14.38852377952158
 20
-12.83542400015726
 30
0.0
 11
-14.38852377952145
 21
23.22457649830652
 31
0.0
  0
LINE
  5
DE
330
1F
100
AcDbEntity
  8
0
  6
Continuous
 62
     7
370
    15
100
AcDbLine
 10
-14.36352502830916
 20
23.22457649830652
 30
0.0
 11
-14.38852377952145
 21
23.22457649830652
 31
0.0
  0
LINE
  5
DF
330
1F
100
AcDbEntity
  8
0
  6
Continuous
 62
     7
370
    15
100
AcDbLine
 10
5.921475933045409
 20
22.29457625508195
 30
0.0
 11
5.921475933045413
 21
23.24957642283852
 31
0.0
  0
LINE
  5
E0
330
1F
100
AcDbEntity
  8
0
  6
Continuous
 62
     7
370
    15
100
AcDbLine
 10
5.941475929503744
 20
22.29457625508195
 30
0.0
 11
5.921475933045409
 21
22.29457625508195
 31
0.0
  0
LINE
  5
E1
330
1F
100
AcDbEntity
  8
0
  6
Continuous
 62
     7
370
    15
100
AcDbLine
 10
5.941475929503744
 20
22.29457625508195
 30
0.0
 11
5.941475929503617
 21
-11.90542375693284
 31
0.0
  0
LINE
  5
E2
330
1F
100
AcDbEntity
  8
0
  6
Continuous
 62
     7
370
    15
100
AcDbLine
 10
5.941475929503617
 20
-11.90542375693284
 30
0.0
 11
5.921475933045283
 21
-11.90542375693284
 31
0.0
  0
LINE
  5
E3
330
1F
100
AcDbEntity
  8
0
  6
Continuous
 62
     7
370
    15
100
AcDbLine
 10
5.921475933045283
 20
-11.90542375693284
 30
0.0
 11
5.92147593304528
 21
-12.86042392468941
 31
0.0
  0
LINE
  5
E4
330
1F
100
AcDbEntity
  8
0
  6
Continuous
 62
     7
370
    15
100
AcDbLine
 10
5.92147593304528
 20
-12.86042392468941
 30
0.0
 11
-14.33852393045744
 21
-12.86042392468933
 31
0.0
  0
LINE
  5
E5
330
1F
100
AcDbEntity
  8
0
  6
Continuous
 62
     7
370
    15
100
AcDbLine
 10
-14.33852393045744
 20
-12.86042392468933
 30
0.0
 11
-14.36352502830929
 21
-12.83542400015726
 31
0.0
  0
LINE
  5
122
330
1F
100
AcDbEntity
  8
0
  6
Continuous
 62
     7
370
    15
100
AcDbLine
 10
-14.33852393045731
 20
23.24957642283859
 30
0.0
 11
-14.36352502830916
 21
23.22457649830652
 31
0.0
  0
LINE
  5
123
330
1F
100
AcDbEntity
  8
0
  6
Continuous
 62
     7
370
    15
100
AcDbLine
 10
5.92147593304528
 20
-12.90042356927676
 30
0.0
 11
5.92147593304528
 21
-12.86042392468941
 31
0.0
  0
LINE
  5
124
330
1F
100
AcDbEntity
  8
0
  6
Continuous
 62
     7
370
    15
100
AcDbLine
 10
-11.55354383611848
 20
-12.9004235692767
 30
0.0
 11
-14.32352421040215
 21
-12.90042356927669
 31
0.0
  0
SPLINE
  5
125
330
1F
100
AcDbEntity
  8
0
  6
Continuous
 62
     7
370
    15
100
AcDbSpline
210
0.0
220
0.0
230
1.0
 70
     8
 71
     3
 72
    11
 73
     7
 74
     0
 42
0.0000000001
 43
0.0000000001
 40
0.0
 40
0.0
 40
0.0
 40
0.0
 40
0.2499988114374716
 40
0.5
 40
0.7500011885625284
 40
1.0
 40
1.0
 40
1.0
 40
1.0
 10
-14.32352421040215
 20
-12.90042356927669
 30
0.0
 10
-14.32477419004475
 20
-12.89982231228351
 30
0.0
 10
-14.32727416121543
 20
-12.89861979258008
 30
0.0
 10
-14.3310240704298
 20
-12.88936996448332
 30
0.0
 10
-14.33477397964416
 20
-12.87614818977337
 30
0.0
 10
-14.33727395081484
 20
-12.8656653297713
 30
0.0
 10
-14.33852393045744
 20
-12.86042392468933
 30
0.0
  0
LINE
  5
126
330
1F
100
AcDbEntity
  8
0
  6
Continuous
 62
     7
370
    15
100
AcDbLine
 10
5.981475931586846
 20
-11.90542375693284
 30
0.0
 11
5.941475929503617
 21
-11.90542375693284
 31
0.0
  0
LINE
  5
127
330
1F
100
AcDbEntity
  8
0
  6
Continuous
 62
     7
370
    15
100
AcDbLine
 10
5.981475931586973
 20
22.29457625508195
 30
0.0
 11
5.941475929503744
 21
22.29457625508195
 31
0.0
  0
LINE
  5
128
330
1F
100
AcDbEntity
  8
0
  6
Continuous
 62
     7
370
    15
100
AcDbLine
 10
5.981475931586973
 20
22.29457625508195
 30
0.0
 11
5.981475931586846
 21
-11.90542375693284
 31
0.0
  0
LINE
  5
129
330
1F
100
AcDbEntity
  8
0
  6
Continuous
 62
     7
370
    15
100
AcDbLine
 10
-14.42852459742872
 20
-12.83542400015726
 30
0.0
 11
-14.42852459742859
 21
23.22457649830652
 31
0.0
  0
LINE
  5
12A
330
1F
100
AcDbEntity
  8
0
  6
Continuous
 62
     7
370
    15
100
AcDbLine
 10
-14.42852459742859
 20
23.22457649830652
 30
0.0
 11
-14.38852377952145
 21
23.22457649830652
 31
0.0
  0
LINE
  5
12B
330
1F
100
AcDbEntity
  8
0
  6
Continuous
 62
     7
370
    15
100
AcDbLine
 10
-14.38852377952158
 20
-12.83542400015726
 30
0.0
 11
-14.42852459742872
 21
-12.83542400015726
 31
0.0
  0
LINE
  5
12E
330
1F
100
AcDbEntity
  8
0
  6
Continuous
 62
     7
370
    15
100
AcDbLine
 10
26.40347538782325
 20
23.22957601388488
 30
0.0
 11
26.40347538782325
 21
23.23257619255989
 31
0.0
  0
SPLINE
  5
12F
330
1F
100
AcDbEntity
  8
0
  6
Continuous
 62
     7
370
    15
100
AcDbSpline
210
0.0
220
0.0
230
1.0
 70
    24
 71
     1
 72
     4
 73
     2
 74
     0
 42
0.0000000001
 43
0.0000000001
 40
0.0
 40
0.0
 40
1.0
 40
1.0
 10
26.40347538782311
 20
-12.85342389888771
 30
0.0
 10
26.39047500467132
 20
-12.85342389888771
 30
0.0
  0
LINE
  5
130
330
1F
100
AcDbEntity
  8
0
  6
Continuous
 62
     7
370
    15
100
AcDbLine
 10
26.40347538782311
 20
-12.84042351573591
 30
0.0
 11
26.40347538782311
 21
-12.85342389888771
 31
0.0
  0
SPLINE
  5
131
330
1F
100
AcDbEntity
  8
0
  6
Continuous
 62
     7
370
    15
100
AcDbSpline
210
0.0
220
0.0
230
1.0
 70
     8
 71
     3
 72
    11
 73
     7
 74
     0
 42
0.0000000001
 43
0.0000000001
 40
0.0
 40
0.0
 40
0.0
 40
0.0
 40
0.2500037456597473
 40
0.4999995440185127
 40
0.7500018799660892
 40
1.0
 40
1.0
 40
1.0
 40
1.0
 10
26.40347538782325
 20
23.23257619255989
 30
0.0
 10
26.40269343349681
 20
23.23939004514953
 30
0.0
 10
26.40112954970126
 20
23.25301753372508
 30
0.0
 10
26.38910648280836
 20
23.27020660283908
 30
0.0
 10
26.37191803442678
 20
23.28223082322119
 30
0.0
 10
26.35829010774327
 20
23.28379464670056
 30
0.0
 10
26.35147620185561
 20
23.2845765518473
 30
0.0
  0
SPLINE
  5
132
330
1F
100
AcDbEntity
  8
0
  6
Continuous
 62
     7
370
    15
100
AcDbSpline
210
0.0
220
0.0
230
1.0
 70
     8
 71
     3
 72
    11
 73
     7
 74
     0
 42
0.0000000001
 43
0.0000000001
 40
0.0
 40
0.0
 40
0.0
 40
0.0
 40
0.2500037456597473
 40
0.4999995440185127
 40
0.7500018799660892
 40
1.0
 40
1.0
 40
1.0
 40
1.0
 10
26.40347538782311
 20
-12.85342389888771
 30
0.0
 10
26.40269343349668
 20
-12.86023775147734
 30
0.0
 10
26.40112954970113
 20
-12.8738652400529
 30
0.0
 10
26.38910648280822
 20
-12.8910543091669
 30
0.0
 10
26.37191803442664
 20
-12.90307852954901
 30
0.0
 10
26.35829010774314
 20
-12.90464235302838
 30
0.0
 10
26.35147620185549
 20
-12.90542425817512
 30
0.0
  0
LINE
  5
133
330
1F
100
AcDbEntity
  8
0
  6
Continuous
 62
     7
370
    15
100
AcDbLine
 10
26.35147620185549
 20
-12.90542425817512
 30
0.0
 11
25.65347647854118
 21
-12.90542425817512
 31
0.0
  0
LINE
  5
134
330
1F
100
AcDbEntity
  8
0
  6
Continuous
 62
     7
370
    15
100
AcDbLine
 10
25.65347647854118
 20
-12.90042356927683
 30
0.0
 11
25.65347647854118
 21
-12.90542425817512
 31
0.0
  0
SPLINE
  5
17F
330
1F
100
AcDbEntity
  8
0
  6
Continuous
 62
     7
370
    15
100
AcDbSpline
210
0.0
220
0.0
230
1.0
 70
     8
 71
     3
 72
    11
 73
     7
 74
     0
 42
0.0000000001
 43
0.0000000001
 40
0.0
 40
0.0
 40
0.0
 40
0.0
 40
0.181875839503188
 40
0.4545934730436166
 40
0.7273013552914209
 40
1.0
 40
1.0
 40
1.0
 40
1.0
 10
-14.35672446686996
 20
-12.84222338827681
 30
0.0
 10
-14.35592051151208
 20
-12.84839725703064
 30
0.0
 10
-14.35391104802694
 20
-12.8638286658785
 30
0.0
 10
-14.33877622851835
 20
-12.88451068811827
 30
0.0
 10
-14.31546612407233
 20
-12.90098249238488
 30
0.0
 10
-14.29683821148496
 20
-12.90310984233227
 30
0.0
 10
-14.28752441294155
 20
-12.90417349929051
 30
0.0
  0
SPLINE
  5
180
330
1F
100
AcDbEntity
  8
0
  6
Continuous
 62
     7
370
    15
100
AcDbSpline
210
0.0
220
0.0
230
1.0
 70
     8
 71
     3
 72
    10
 73
     6
 74
     0
 42
0.0000000001
 43
0.0000000001
 40
0.0
 40
0.0
 40
0.0
 40
0.0
 40
0.1086927589926085
 40
0.782748235549049
 40
1.0
 40
1.0
 40
1.0
 40
1.0
 10
-14.33401368922667
 20
23.26751296230083
 30
0.0
 10
-14.3352691749273
 20
23.26671287799622
 30
0.0
 10
-14.34431052437904
 20
23.26095109051814
 30
0.0
 10
-14.35243413152893
 20
23.24820233968581
 30
0.0
 10
-14.35438557925692
 20
23.23617156138527
 30
0.0
 10
-14.35486123506071
 20
23.2332391182352
 30
0.0
  0
LINE
  5
181
330
1F
100
AcDbEntity
  8
0
  6
Continuous
 62
     7
370
    15
100
AcDbLine
 10
-13.6085242568093
 20
-12.90042356927669
 30
0.0
 11
-13.6085242568093
 21
-12.90417349929051
 31
0.0
  0
LINE
  5
182
330
1F
100
AcDbEntity
  8
0
  6
Continuous
 62
     7
370
    15
100
AcDbLine
 10
-14.28752441294155
 20
-12.90417349929051
 30
0.0
 11
-13.6085242568093
 21
-12.90417349929051
 31
0.0
  0
ARC
  5
183
330
1F
100
AcDbEntity
  8
0
  6
Continuous
 62
     7
370
    15
100
AcDbCircle
 10
5.996475931222255
 20
-12.42542375092548
 30
0.0
 40
0.0805000000000034
100
AcDbArc
 50
0.0
 51
158.6977589281466
  0
ARC
  5
184
330
1F
100
AcDbEntity
  8
0
  6
Continuous
 62
     7
370
    15
100
AcDbCircle
 10
5.996475931222255
 20
-12.42542375092548
 30
0.0
 40
0.0805000000000034
100
AcDbArc
 50
201.3022410718541
 51
0.0
  0
LINE
  5
185
330
1F
100
AcDbEntity
  8
0
  6
Continuous
 62
     7
370
    15
100
AcDbLine
 10
6.123475935774014
 20
-12.01542365953791
 30
0.0
 11
5.921475933045283
 21
-12.01542365953791
 31
0.0
  0
ARC
  5
186
330
1F
100
AcDbEntity
  8
0
  6
Continuous
 62
     7
370
    15
100
AcDbCircle
 10
5.99647593122236
 20
22.81457624907455
 30
0.0
 40
0.0805000000000033
100
AcDbArc
 50
201.3022410718769
 51
158.6977589281262
  0
LINE
  5
187
330
1F
100
AcDbEntity
  8
0
  6
Continuous
 62
     7
370
    15
100
AcDbLine
 10
5.921475933045409
 20
22.40457615768702
 30
0.0
 11
6.12347593577414
 21
22.40457615768702
 31
0.0
  0
LINE
  5
188
330
1F
100
AcDbEntity
  8
0
  6
Continuous
 62
     7
370
    15
100
AcDbLine
 10
5.921475933045409
 20
22.44457580227438
 30
0.0
 11
6.12347593577414
 21
22.44457580227438
 31
0.0
  0
ARC
  5
189
330
1F
100
AcDbEntity
  8
0
  6
Continuous
 62
     7
370
    15
100
AcDbCircle
 10
5.996487042388347
 20
22.82457624907455
 30
0.0
 40
0.0940000000000025
100
AcDbArc
 50
217.0613603504477
 51
142.9386396495547
  0
ARC
  5
18B
330
1F
100
AcDbEntity
  8
0
  6
Continuous
 62
     7
370
    15
100
AcDbCircle
 10
5.996487042388217
 20
-12.43542375092544
 30
0.0
 40
0.0940000000000022
100
AcDbArc
 50
217.0613603504592
 51
142.9386396495407
  0
LINE
  5
18D
330
1F
100
AcDbEntity
  8
0
  6
Continuous
 62
     7
370
    15
100
AcDbLine
 10
5.921475933045283
 20
-12.05542330412527
 30
0.0
 11
6.123475935774014
 21
-12.05542330412527
 31
0.0
  0
LINE
  5
18E
330
1F
100
AcDbEntity
  8
0
  6
Continuous
 62
     7
370
    15
100
AcDbLine
 10
6.123475935774144
 20
23.1945758848761
 30
0.0
 11
5.921475933045413
 21
23.1945758848761
 31
0.0
  0
LINE
  5
18F
330
1F
100
AcDbEntity
  8
0
  6
Continuous
 62
     7
370
    15
100
AcDbLine
 10
6.123475935774011
 20
-12.80542338672698
 30
0.0
 11
5.92147593304528
 21
-12.80542338672698
 31
0.0
  0
LINE
  5
199
330
1F
100
AcDbEntity
  8
0
  6
Continuous
 62
     7
370
    15
100
AcDbLine
 10
6.123475935774144
 20
23.15457624028874
 30
0.0
 11
5.921475933045413
 21
23.15457624028874
 31
0.0
  0
LINE
  5
19A
330
1F
100
AcDbEntity
  8
0
  6
Continuous
 62
     7
370
    15
100
AcDbLine
 10
6.123475935774011
 20
-12.76542374213962
 30
0.0
 11
5.92147593304528
 21
-12.76542374213962
 31
0.0
  0
MTEXT
  5
1AB
330
1F
100
AcDbEntity
  8
0
  6
Continuous
 62
     0
370
     0
100
AcDbMText
 10
-6.166539073015017
 20
9.449137609334817
 30
0.0
 40
1.041666666666666
 41
0.0
 71
     1
 72
     1
  1
TITUS
  7
SLDTEXTSTYLE0
 73
     1
 44
1.0
  0
MTEXT
  5
1AC
330
1F
100
AcDbEntity
  8
0
  6
Continuous
 62
     0
370
     0
100
AcDbMText
 10
-5.820281406346463
 20
8.060248773897162
 30
0.0
 40
1.041666666666666
 41
0.0
 71
     1
 72
     1
  1
TQP
  7
SLDTEXTSTYLE0
 73
     1
 44
1.0
  0
MTEXT
  5
1AD
330
1F
100
AcDbEntity
  8
0
  6
Continuous
 62
     0
370
     0
100
AcDbMText
 10
-6.429849191234062
 20
6.671359938459509
 30
0.0
 40
1.041666666666666
 41
0.0
 71
     1
 72
     1
  1
SIZE 4
  7
SLDTEXTSTYLE0
 73
     1
 44
1.0
  0
MTEXT
  5
1AE
330
1F
100
AcDbEntity
  8
0
  6
Continuous
 62
     0
370
     0
100
AcDbMText
 10
-7.471515744479817
 20
5.282471103021855
 30
0.0
 40
1.041666666666666
 41
0.0
 71
     1
 72
     1
  1
14" INLET
  7
SLDTEXTSTYLE0
 73
     1
 44
1.0
  0
LINE
  5
1C1
330
1F
100
AcDbEntity
  8
0
370
    18
100
AcDbLine
 10
-27.16369074083655
 20
-0.0406525789770242
 30
0.0
 11
-20.92773836087218
 21
5.335215461707932
 31
0.0
  0
LINE
  5
1C2
330
1F
100
AcDbEntity
  8
0
370
    18
100
AcDbLine
 10
-27.16369074083655
 20
10.71108350239289
 30
0.0
 11
-20.92773836087218
 21
5.335215461707932
 31
0.0
  0
LINE
  5
1C3
330
1F
100
AcDbEntity
  8
0
370
    18
100
AcDbLine
 10
-27.16369074083655
 20
7.505255517995735
 30
0.0
 11
-27.16369074083655
 21
10.71108350239289
 31
0.0
  0
MTEXT
  5
1C4
330
1F
100
AcDbEntity
  8
0
  6
Continuous
 62
     0
370
    18
100
AcDbMText
 10
-35.09582645899269
 20
6.705347598238333
 30
0.0
 40
2.381249999999999
 41
0.0
 71
     1
 72
     1
  1
{\fVerdana|b0|i0|c0|p34;AIRFLOW}
  7
SLDTEXTSTYLE0
 73
     1
 44
1.0
  0
LINE
  5
1C5
330
1F
100
AcDbEntity
  8
0
370
    18
100
AcDbLine
 10
-36.0565016006347
 20
3.165175405420136
 30
0.0
 11
-27.16369074083655
 21
3.165175405420136
 31
0.0
  0
LINE
  5
1C6
330
1F
100
AcDbEntity
  8
0
370
    18
100
AcDbLine
 10
-36.0565016006347
 20
7.505255517995735
 30
0.0
 11
-27.16369074083655
 21
7.505255517995735
 31
0.0
  0
LINE
  5
1C7
330
1F
100
AcDbEntity
  8
0
370
    18
100
AcDbLine
 10
-36.0565016006347
 20
3.165175405420136
 30
0.0
 11
-36.0565016006347
 21
7.505255517995735
 31
0.0
  0
LINE
  5
1C8
330
1F
100
AcDbEntity
  8
0
370
    18
100
AcDbLine
 10
-27.16369074083655
 20
3.165175405420136
 30
0.0
 11
-27.16369074083655
 21
-0.0406525789770242
 31
0.0
  0
ENDSEC
  0
SECTION
  2
OBJECTS
  0
DICTIONARY
  5
C
330
0
100
AcDbDictionary
281
     1
  3
ACAD_GROUP
350
D
  3
ACAD_LAYOUT
350
1A
  3
ACAD_MLINESTYLE
350
17
  3
ACAD_PLOTSETTINGS
350
19
  3
ACAD_PLOTSTYLENAME
350
E
  0
DICTIONARY
  5
D
102
{ACAD_REACTORS
330
C
102
}
330
C
100
AcDbDictionary
281
     1
  0
DICTIONARY
  5
1A
102
{ACAD_REACTORS
330
C
102
}
330
C
100
AcDbDictionary
281
     1
  3
Layout1
350
1E
  3
Layout2
350
26
  3
Model
350
22
  0
DICTIONARY
  5
17
102
{ACAD_REACTORS
330
C
102
}
330
C
100
AcDbDictionary
281
     1
  3
Standard
350
18
  0
DICTIONARY
  5
19
102
{ACAD_REACTORS
330
C
102
}
330
C
100
AcDbDictionary
281
     1
  0
ACDBDICTIONARYWDFLT
  5
E
102
{ACAD_REACTORS
330
C
102
}
330
C
100
AcDbDictionary
281
     1
  3
Normal
350
F
100
AcDbDictionaryWithDefault
340
F
  0
LAYOUT
  5
1E
102
{ACAD_REACTORS
330
1A
102
}
330
1A
100
AcDbPlotSettings
  1

  2
none_device
  4

  6

 40
0.0
 41
0.0
 42
0.0
 43
0.0
 44
0.0
 45
0.0
 46
0.0
 47
0.0
 48
0.0
 49
0.0
140
0.0
141
0.0
142
1.0
143
1.0
 70
   688
 72
     0
 73
     0
 74
     5
  7

 75
    16
147
1.0
148
0.0
149
0.0
100
AcDbLayout
  1
Layout1
 70
     1
 71
     1
 10
0.0
 20
0.0
 11
12.0
 21
9.0
 12
0.0
 22
0.0
 32
0.0
 14
1.000000000000000E+20
 24
1.000000000000000E+20
 34
1.000000000000000E+20
 15
-1.000000000000000E+20
 25
-1.000000000000000E+20
 35
-1.000000000000000E+20
146
0.0
 13
0.0
 23
0.0
 33
0.0
 16
1.0
 26
0.0
 36
0.0
 17
0.0
 27
1.0
 37
0.0
 76
     0
330
1B
  0
LAYOUT
  5
26
102
{ACAD_REACTORS
330
1A
102
}
330
1A
100
AcDbPlotSettings
  1

  2
none_device
  4

  6

 40
0.0
 41
0.0
 42
0.0
 43
0.0
 44
0.0
 45
0.0
 46
0.0
 47
0.0
 48
0.0
 49
0.0
140
0.0
141
0.0
142
1.0
143
1.0
 70
   688
 72
     0
 73
     0
 74
     5
  7

 75
    16
147
1.0
148
0.0
149
0.0
100
AcDbLayout
  1
Layout2
 70
     1
 71
     2
 10
0.0
 20
0.0
 11
0.0
 21
0.0
 12
0.0
 22
0.0
 32
0.0
 14
0.0
 24
0.0
 34
0.0
 15
0.0
 25
0.0
 35
0.0
146
0.0
 13
0.0
 23
0.0
 33
0.0
 16
1.0
 26
0.0
 36
0.0
 17
0.0
 27
1.0
 37
0.0
 76
     0
330
23
  0
LAYOUT
  5
22
102
{ACAD_REACTORS
330
1A
102
}
330
1A
100
AcDbPlotSettings
  1

  2
none_device
  4

  6

 40
0.0
 41
0.0
 42
0.0
 43
0.0
 44
0.0
 45
0.0
 46
0.0
 47
0.0
 48
0.0
 49
0.0
140
0.0
141
0.0
142
1.0
143
1.0
 70
  1712
 72
     0
 73
     0
 74
     0
  7

 75
     0
147
1.0
148
0.0
149
0.0
100
AcDbLayout
  1
Model
 70
     1
 71
     0
 10
0.0
 20
0.0
 11
0.0
 21
0.0
 12
0.0
 22
0.0
 32
0.0
 14
0.0
 24
0.0
 34
0.0
 15
11.0
 25
8.5
 35
0.0
146
0.0
 13
0.0
 23
0.0
 33
0.0
 16
1.0
 26
0.0
 36
0.0
 17
0.0
 27
1.0
 37
0.0
 76
     0
330
1F
  0
MLINESTYLE
  5
18
102
{ACAD_REACTORS
330
17
102
}
330
17
100
AcDbMlineStyle
  2
STANDARD
 70
     0
  3

 62
   256
 51
90.0
 52
90.0
 71
     2
 49
0.5
 62
   256
  6
BYLAYER
 49
-0.5
 62
   256
  6
BYLAYER
  0
ACDBPLACEHOLDER
  5
F
102
{ACAD_REACTORS
330
E
102
}
330
E
  0
ENDSEC
  0
EOF
